Balalaika.org.ru
Форум
  Добро пожаловать, Гость. Пожалуйста, выберите Вход или Регистрация
   
  ГлавнаяСправкаПоискВходРегистрация  
 
Тема "Не пойду" из к/ф "Любовь и голуби" (Прочитано 2190 раз)
mihles
Новичок
*
Вне Форума



Сообщений: 2
Пол: male
Тема "Не пойду" из к/ф "Любовь и голуби"
23.02.15 :: 09:52:19
 
Подскажите где скачать ноты или табы для балалайки
этой темы
http://www.youtube.com/watch?v=X1MfMKKS6Bk
Наверх
 
 
IP записан
 
mihles
Новичок
*
Вне Форума



Сообщений: 2
Пол: male
Re: Тема "Не пойду" из к/ф "Любовь и голуби"
Ответ #1 - 12.03.15 :: 19:31:08
 
Вроде сам подобрал, поправьте если что

ЕЕА
-13-13-11-9-9-8-8-3-4-6-8-6-6-3-4-6-9-8-8-
-11----------------------------------------------
-11----------------------------------------------

-13-13-11-9-9-8-8-3-4-6-8-6-6-4-6-4-1
-11----------------------------------------
-11----------------------------------------

-1-3-4-6-8-6-3-4-6-8-9-8-1-3-4-6-8-6-3-4-6-4-1
------------------------------------------------------
------------------------------------------------------

-1-3-4-6-8-6-3-4-6-8-9-8-1-3-4-6-8-6-3-4-6-4-1
------------------------------------------------------
------------------------------------------------------
Наверх
 
 
IP записан
 
stiil
Новичок
*
Вне Форума



Сообщений: 3
Re: Тема "Не пойду" из к/ф "Любовь и голуби"
Ответ #2 - 01.12.16 :: 02:16:01
 
подправил
12--12--10--8--8--7--7--2--3--5--7--5--5--2--3--5--8--7--7
-----------------------------------------------------------------
10--------------------------------------------------------------
второй куплет
--0--3--3--2--------2--5--5-3----0--3--7--7--5--------2--8--7-
--------------------------------------------------------------------
0--------------0--4-------------0------------------0--4-----------
и переход чтобы начать с начала
----3---7------------------------------
----------------------------------------
0-------------------------------------
Наверх
 
 
IP записан
 
stiil
Новичок
*
Вне Форума



Сообщений: 3
Re: Тема "Не пойду" из к/ф "Любовь и голуби"
Ответ #3 - 02.12.16 :: 11:40:54
 
stiil писал(а) 01.12.16 :: 02:16:01:
подправил
12--12--10--8--8--7--7--2--3--5--7--5--5--2--3--5--8--7--7
10---------------------------------------------------------------
10--------------------------------------------------------------
второй куплет
--0--3--3--2--------2--5--5-3----0--3--7--7--5--------2--8--7-
--------------------------------------------------------------------
0--------------0--4-------------0------------------0--4-----------
и переход чтобы начать с начала
----3---7------------------------------
----------------------------------------
0-------------------------------------

Наверх
 
 
IP записан